  0
SECTION
  2
HEADER
  9
$ACADVER
  1
AC1015
  9
$ACADMAINTVER
 70
     6
  9
$DWGCODEPAGE
  3
ANSI_1254
  9
$INSBASE
 10
0.0
 20
0.0
 30
0.0
  9
$EXTMIN
 10
0.0
 20
0.0
 30
0.0
  9
$EXTMAX
 10
279.4
 20
215.9
 30
0.0
  9
$LIMMIN
 10
0.0
 20
0.0
  9
$LIMMAX
 10
279.4
 20
215.9
  9
$ORTHOMODE
 70
     0
  9
$REGENMODE
 70
     1
  9
$FILLMODE
 70
     1
  9
$QTEXTMODE
 70
     0
  9
$MIRRTEXT
 70
     1
  9
$LTSCALE
 40
1.0
  9
$ATTMODE
 70
     1
  9
$TEXTSIZE
 40
3.5
  9
$TRACEWID
 40
1.0
  9
$TEXTSTYLE
  7
Standard
  9
$CLAYER
  8
0
  9
$CELTYPE
  6
ByLayer
  9
$CECOLOR
 62
   256
  9
$CELTSCALE
 40
1.0
  9
$DISPSILH
 70
     0
  9
$DIMSCALE
 40
1.0
  9
$DIMASZ
 40
3.5
  9
$DIMEXO
 40
1.0
  9
$DIMDLI
 40
3.75
  9
$DIMRND
 40
0.0
  9
$DIMDLE
 40
0.0
  9
$DIMEXE
 40
1.0
  9
$DIMTP
 40
0.0
  9
$DIMTM
 40
0.0
  9
$DIMTXT
 40
3.5
  9
$DIMCEN
 40
2.5
  9
$DIMTSZ
 40
0.0
  9
$DIMTOL
 70
     0
  9
$DIMLIM
 70
     0
  9
$DIMTIH
 70
     1
  9
$DIMTOH
 70
     1
  9
$DIMSE1
 70
     0
  9
$DIMSE2
 70
     0
  9
$DIMTAD
 70
     1
  9
$DIMZIN
 70
     0
  9
$DIMBLK
  1

  9
$DIMASO
 70
     1
  9
$DIMSHO
 70
     1
  9
$DIMPOST
  1

  9
$DIMAPOST
  1

  9
$DIMALT
 70
     0
  9
$DIMALTD
 70
     3
  9
$DIMALTF
 40
0.0393700787
  9
$DIMLFAC
 40
1.0
  9
$DIMTOFL
 70
     1
  9
$DIMTVP
 40
0.0
  9
$DIMTIX
 70
     0
  9
$DIMSOXD
 70
     0
  9
$DIMSAH
 70
     0
  9
$DIMBLK1
  1

  9
$DIMBLK2
  1

  9
$DIMSTYLE
  2
ISO-25
  9
$DIMCLRD
 70
     0
  9
$DIMCLRE
 70
     0
  9
$DIMCLRT
 70
     0
  9
$DIMTFAC
 40
1.0
  9
$DIMGAP
 40
1.524
  9
$DIMJUST
 70
     0
  9
$DIMSD1
 70
     0
  9
$DIMSD2
 70
     0
  9
$DIMTOLJ
 70
     0
  9
$DIMTZIN
 70
     0
  9
$DIMALTZ
 70
     0
  9
$DIMALTTZ
 70
     0
  9
$DIMUPT
 70
     0
  9
$DIMDEC
 70
     2
  9
$DIMTDEC
 70
     2
  9
$DIMALTU
 70
     2
  9
$DIMALTTD
 70
     3
  9
$DIMTXSTY
  7
Standard
  9
$DIMAUNIT
 70
     0
  9
$DIMADEC
 70
     2
  9
$DIMALTRND
 40
0.0
  9
$DIMAZIN
 70
     0
  9
$DIMDSEP
 70
    44
  9
$DIMATFIT
 70
     3
  9
$DIMFRAC
 70
     0
  9
$DIMLDRBLK
  1

  9
$DIMLUNIT
 70
     2
  9
$DIMLWD
 70
    -2
  9
$DIMLWE
 70
    -2
  9
$DIMTMOVE
 70
     0
  9
$LUNITS
 70
     2
  9
$LUPREC
 70
     2
  9
$SKETCHINC
 40
1.0
  9
$FILLETRAD
 40
10.0
  9
$AUNITS
 70
     0
  9
$AUPREC
 70
     2
  9
$MENU
  1
.
  9
$ELEVATION
 40
0.0
  9
$PELEVATION
 40
0.0
  9
$THICKNESS
 40
0.0
  9
$LIMCHECK
 70
     0
  9
$CHAMFERA
 40
0.0
  9
$CHAMFERB
 40
0.0
  9
$CHAMFERC
 40
0.0
  9
$CHAMFERD
 40
0.0
  9
$SKPOLY
 70
     0
  9
$TDCREATE
 40
2458985.682727778
  9
$TDUCREATE
 40
2458985.557727778
  9
$TDUPDATE
 40
2458985.682728229
  9
$TDUUPDATE
 40
2458985.557728229
  9
$TDINDWG
 40
0.0000000116
  9
$TDUSRTIMER
 40
0.0000000116
  9
$USRTIMER
 70
     1
  9
$ANGBASE
 50
0.0
  9
$ANGDIR
 70
     0
  9
$PDMODE
 70
     0
  9
$PDSIZE
 40
-1.0
  9
$PLINEWID
 40
0.0
  9
$SPLFRAME
 70
     0
  9
$SPLINETYPE
 70
     6
  9
$SPLINESEGS
 70
     8
  9
$HANDSEED
  5
CB
  9
$SURFTAB1
 70
     6
  9
$SURFTAB2
 70
     6
  9
$SURFTYPE
 70
     6
  9
$SURFU
 70
     6
  9
$SURFV
 70
     6
  9
$UCSBASE
  2

  9
$UCSNAME
  2

  9
$UCSORG
 10
0.0
 20
0.0
 30
0.0
  9
$UCSXDIR
 10
1.0
 20
0.0
 30
0.0
  9
$UCSYDIR
 10
0.0
 20
1.0
 30
0.0
  9
$UCSORTHOREF
  2

  9
$UCSORTHOVIEW
 70
     0
  9
$UCSORGTOP
 10
0.0
 20
0.0
 30
0.0
  9
$UCSORGBOTTOM
 10
0.0
 20
0.0
 30
0.0
  9
$UCSORGLEFT
 10
0.0
 20
0.0
 30
0.0
  9
$UCSORGRIGHT
 10
0.0
 20
0.0
 30
0.0
  9
$UCSORGFRONT
 10
0.0
 20
0.0
 30
0.0
  9
$UCSORGBACK
 10
0.0
 20
0.0
 30
0.0
  9
$PUCSBASE
  2

  9
$PUCSNAME
  2

  9
$PUCSORG
 10
0.0
 20
0.0
 30
0.0
  9
$PUCSXDIR
 10
1.0
 20
0.0
 30
0.0
  9
$PUCSYDIR
 10
0.0
 20
1.0
 30
0.0
  9
$PUCSORTHOREF
  2

  9
$PUCSORTHOVIEW
 70
     0
  9
$PUCSORGTOP
 10
0.0
 20
0.0
 30
0.0
  9
$PUCSORGBOTTOM
 10
0.0
 20
0.0
 30
0.0
  9
$PUCSORGLEFT
 10
0.0
 20
0.0
 30
0.0
  9
$PUCSORGRIGHT
 10
0.0
 20
0.0
 30
0.0
  9
$PUCSORGFRONT
 10
0.0
 20
0.0
 30
0.0
  9
$PUCSORGBACK
 10
0.0
 20
0.0
 30
0.0
  9
$USERI1
 70
     0
  9
$USERI2
 70
     0
  9
$USERI3
 70
     0
  9
$USERI4
 70
     0
  9
$USERI5
 70
     0
  9
$USERR1
 40
0.0
  9
$USERR2
 40
0.0
  9
$USERR3
 40
0.0
  9
$USERR4
 40
0.0
  9
$USERR5
 40
0.0
  9
$WORLDVIEW
 70
     1
  9
$SHADEDGE
 70
     3
  9
$SHADEDIF
 70
    70
  9
$TILEMODE
 70
     1
  9
$MAXACTVP
 70
    64
  9
$PINSBASE
 10
0.0
 20
0.0
 30
0.0
  9
$PLIMCHECK
 70
     0
  9
$PEXTMIN
 10
1.0000000000E+20
 20
1.0000000000E+20
 30
1.0000000000E+20
  9
$PEXTMAX
 10
-1.0000000000E+20
 20
-1.0000000000E+20
 30
-1.0000000000E+20
  9
$PLIMMIN
 10
0.0
 20
0.0
  9
$PLIMMAX
 10
420.0
 20
297.0
  9
$UNITMODE
 70
     0
  9
$VISRETAIN
 70
     1
  9
$PLINEGEN
 70
     0
  9
$PSLTSCALE
 70
     1
  9
$TREEDEPTH
 70
  3020
  9
$CMLSTYLE
  2
Standard
  9
$CMLJUST
 70
     0
  9
$CMLSCALE
 40
20.0
  9
$PROXYGRAPHICS
 70
     1
  9
$MEASUREMENT
 70
     1
  9
$CELWEIGHT
370
    -1
  9
$ENDCAPS
280
     0
  9
$JOINSTYLE
280
     0
  9
$LWDISPLAY
290
     1
  9
$INSUNITS
 70
     4
  9
$HYPERLINKBASE
  1

  9
$STYLESHEET
  1

  9
$XEDIT
290
     1
  9
$CEPSNTYPE
380
     0
  9
$PSTYLEMODE
290
     1
  9
$FINGERPRINTGUID
  2
{5677a074-981d-4e56-8c4c-9d5d5ca6755c}
  9
$VERSIONGUID
  2
{FAEB1C32-E019-11D5-929B-00C0DF256EC4}
  9
$EXTNAMES
290
     1
  9
$PSVPSCALE
 40
0.0
  9
$OLESTARTUP
290
     0
  0
ENDSEC
  0
SECTION
  2
CLASSES
  0
CLASS
  1
ACDBDICTIONARYWDFLT
  2
AcDbDictionaryWithDefault
  3
ObjectDBX Classes
 90
        0
280
     0
281
     0
  0
CLASS
  1
VISUALSTYLE
  2
AcDbVisualStyle
  3
ObjectDBX Classes
 90
     4095
280
     0
281
     0
  0
CLASS
  1
MATERIAL
  2
AcDbMaterial
  3
ObjectDBX Classes
 90
     1153
280
     0
281
     0
  0
CLASS
  1
SCALE
  2
AcDbScale
  3
ObjectDBX Classes
 90
     1153
280
     0
281
     0
  0
CLASS
  1
TABLESTYLE
  2
AcDbTableStyle
  3
ObjectDBX Classes
 90
     4095
280
     0
281
     0
  0
CLASS
  1
MLEADERSTYLE
  2
AcDbMLeaderStyle
  3
ACDB_MLEADERSTYLE_CLASS
 90
     4095
280
     0
281
     0
  0
CLASS
  1
SUN
  2
AcDbSun
  3
SCENEOE
 90
     1153
280
     0
281
     0
  0
CLASS
  1
ACDBPLACEHOLDER
  2
AcDbPlaceHolder
  3
ObjectDBX Classes
 90
        0
280
     0
281
     0
  0
CLASS
  1
LAYOUT
  2
AcDbLayout
  3
ObjectDBX Classes
 90
        0
280
     0
281
     0
  0
ENDSEC
  0
SECTION
  2
TABLES
  0
TABLE
  2
VPORT
  5
8
330
0
100
AcDbSymbolTable
 70
     1
  0
VPORT
  5
29
330
8
100
AcDbSymbolTableRecord
100
AcDbViewportTableRecord
  2
*Active
 70
     0
 10
0.0
 20
0.0
 11
1.0
 21
1.0
 12
139.7
 22
107.95
 13
0.0
 23
0.0
 14
10.0
 24
10.0
 15
10.0
 25
10.0
 16
0.0
 26
0.0
 36
1.0
 17
0.0
 27
0.0
 37
0.0
 40
215.9
 41
1.2941176471
 42
50.0
 43
0.0
 44
0.0
 50
0.0
 51
0.0
 71
     0
 72
  2000
 73
     1
 74
     3
 75
     0
 76
     0
 77
     0
 78
     0
281
     0
 65
     1
110
0.0
120
0.0
130
0.0
111
1.0
121
0.0
131
0.0
112
0.0
122
1.0
132
0.0
 79
     0
146
0.0
  0
ENDTAB
  0
TABLE
  2
LTYPE
  5
5
330
0
100
AcDbSymbolTable
 70
     6
  0
LTYPE
  5
14
330
5
100
AcDbSymbolTableRecord
100
AcDbLinetypeTableRecord
  2
ByBlock
 70
     0
  3

 72
    65
 73
     0
 40
0.0
  0
LTYPE
  5
15
330
5
100
AcDbSymbolTableRecord
100
AcDbLinetypeTableRecord
  2
ByLayer
 70
     0
  3

 72
    65
 73
     0
 40
0.0
  0
LTYPE
  5
16
330
5
100
AcDbSymbolTableRecord
100
AcDbLinetypeTableRecord
  2
Continuous
 70
     0
  3
Solid line
 72
    65
 73
     0
 40
0.0
  0
LTYPE
  5
6E
330
5
100
AcDbSymbolTableRecord
100
AcDbLinetypeTableRecord
  2
HIDDEN
 70
     0
  3
Hidden __ __ __ __ __ __ __ __ __ __ __ __ __ __
 72
    65
 73
     2
 40
1.905
 49
1.27
 74
     0
 49
-0.635
 74
     0
  0
LTYPE
  5
6F
330
5
100
AcDbSymbolTableRecord
100
AcDbLinetypeTableRecord
  2
PHANTOM
 70
     0
  3
Phantom ______  __  __  ______  __  __  ______
 72
    65
 73
     6
 40
12.7
 49
6.35
 74
     0
 49
-1.27
 74
     0
 49
1.27
 74
     0
 49
-1.27
 74
     0
 49
1.27
 74
     0
 49
-1.27
 74
     0
  0
LTYPE
  5
70
330
5
100
AcDbSymbolTableRecord
100
AcDbLinetypeTableRecord
  2
CENTER
 70
     0
  3
Center ____ _ ____ _ ____ _ ____ _ ____ _ ____
 72
    65
 73
     4
 40
10.16
 49
6.35
 74
     0
 49
-1.27
 74
     0
 49
1.27
 74
     0
 49
-1.27
 74
     0
  0
LTYPE
  5
71
330
5
100
AcDbSymbolTableRecord
100
AcDbLinetypeTableRecord
  2
CENTERX2
 70
     0
  3
Center (2x) ________  __  ________  __  _____
 72
    65
 73
     4
 40
20.32
 49
12.7
 74
     0
 49
-2.54
 74
     0
 49
2.54
 74
     0
 49
-2.54
 74
     0
  0
LTYPE
  5
72
330
5
100
AcDbSymbolTableRecord
100
AcDbLinetypeTableRecord
  2
DOT2
 70
     0
  3
Dot (.5x) ........................................
 72
    65
 73
     2
 40
0.635
 49
0.0
 74
     0
 49
-0.635
 74
     0
  0
ENDTAB
  0
TABLE
  2
LAYER
  5
2
330
0
100
AcDbSymbolTable
 70
    17
  0
LAYER
  5
10
330
2
100
AcDbSymbolTableRecord
100
AcDbLayerTableRecord
  2
0
 70
     0
 62
     7
  6
Continuous
370
    -3
390
F
  0
LAYER
  5
73
330
2
100
AcDbSymbolTableRecord
100
AcDbLayerTableRecord
  2
FORMAT
 70
     0
 62
     7
  6
Continuous
370
    -3
390
F
  0
LAYER
  5
74
330
2
100
AcDbSymbolTableRecord
100
AcDbLayerTableRecord
  2
YARDIMCI_GEOMETRI
 70
     0
 62
    -6
  6
Continuous
290
     0
370
    -3
390
F
  0
LAYER
  5
75
330
2
100
AcDbSymbolTableRecord
100
AcDbLayerTableRecord
  2
SAYFA_CERCEVESI
 70
     0
 62
     7
  6
Continuous
370
    25
390
F
  0
LAYER
  5
76
330
2
100
AcDbSymbolTableRecord
100
AcDbLayerTableRecord
  2
ANTET
 70
     0
 62
     7
  6
Continuous
370
    -3
390
F
  0
LAYER
  5
77
330
2
100
AcDbSymbolTableRecord
100
AcDbLayerTableRecord
  2
OLCU
 70
     0
 62
   150
  6
Continuous
370
    -3
390
F
  0
LAYER
  5
78
330
2
100
AcDbSymbolTableRecord
100
AcDbLayerTableRecord
  2
METIN
 70
     0
 62
    96
  6
Continuous
370
    -3
390
F
  0
LAYER
  5
79
330
2
100
AcDbSymbolTableRecord
100
AcDbLayerTableRecord
  2
BALON
 70
     0
 62
     5
  6
Continuous
370
    -3
390
F
  0
LAYER
  5
7A
330
2
100
AcDbSymbolTableRecord
100
AcDbLayerTableRecord
  2
VURGU
 70
     0
 62
     7
  6
Continuous
370
    -3
390
F
  0
LAYER
  5
7B
330
2
100
AcDbSymbolTableRecord
100
AcDbLayerTableRecord
  2
SILIK
 70
     0
 62
     7
  6
Continuous
370
    -3
390
F
  0
LAYER
  5
7C
330
2
100
AcDbSymbolTableRecord
100
AcDbLayerTableRecord
  2
MODEL
 70
     0
 62
     7
  6
Continuous
370
    -3
390
F
  0
LAYER
  5
7D
330
2
100
AcDbSymbolTableRecord
100
AcDbLayerTableRecord
  2
DETAYLANDıRMA
 70
     0
 62
   190
  6
Continuous
370
    -3
390
F
  0
LAYER
  5
7E
330
2
100
AcDbSymbolTableRecord
100
AcDbLayerTableRecord
  2
TOLERANS
 70
     0
 62
   230
  6
Continuous
370
    -3
390
F
  0
LAYER
  5
7F
330
2
100
AcDbSymbolTableRecord
100
AcDbLayerTableRecord
  2
MERKEZ_CIZGILERI
 70
     0
 62
    30
  6
Continuous
370
    -3
390
F
  0
LAYER
  5
80
330
2
100
AcDbSymbolTableRecord
100
AcDbLayerTableRecord
  2
KESIT-DETAY_CIZGILERI
 70
     0
 62
     7
  6
Continuous
370
    -3
390
F
  0
LAYER
  5
81
330
2
100
AcDbSymbolTableRecord
100
AcDbLayerTableRecord
  2
\U+041E\U+0421\U+0415\U+0412\U+042B\U+0415
 70
     0
 62
     7
  6
Continuous
370
    -3
390
F
  0
LAYER
  5
82
330
2
100
AcDbSymbolTableRecord
100
AcDbLayerTableRecord
  2
\U+0412\U+041E\U+0414\U+042F\U+041D\U+042B\U+0415_\U+0417\U+041D\U+0410\U+041A\U+0418
 70
     0
 62
    11
  6
Continuous
370
    -3
390
F
  0
ENDTAB
  0
TABLE
  2
STYLE
  5
3
330
0
100
AcDbSymbolTable
 70
     1
  0
STYLE
  5
11
330
3
100
AcDbSymbolTableRecord
100
AcDbTextStyleTableRecord
  2
Standard
 70
     0
 40
0.0
 41
1.0
 50
0.0
 71
     0
 42
3.5
  3
txt
  4

  0
ENDTAB
  0
TABLE
  2
VIEW
  5
6
330
0
100
AcDbSymbolTable
 70
     0
  0
ENDTAB
  0
TABLE
  2
UCS
  5
7
330
0
100
AcDbSymbolTable
 70
     0
  0
ENDTAB
  0
TABLE
  2
APPID
  5
9
330
0
100
AcDbSymbolTable
 70
     1
  0
APPID
  5
12
330
9
100
AcDbSymbolTableRecord
100
AcDbRegAppTableRecord
  2
ACAD
 70
     0
  0
ENDTAB
  0
TABLE
  2
DIMSTYLE
  5
A
330
0
100
AcDbSymbolTable
 70
     1
100
AcDbDimStyleTable
  0
DIMSTYLE
105
27
330
A
100
AcDbSymbolTableRecord
100
AcDbDimStyleTableRecord
  2
ISO-25
 70
     0
 41
2.5
 42
0.625
 43
3.75
 44
1.25
 73
     0
 74
     0
 77
     1
 78
     8
140
2.5
141
2.5
143
0.0393700787
147
0.625
171
     3
172
     1
178
     0
271
     2
272
     2
274
     3
278
    44
283
     0
284
     8
340
11
  0
ENDTAB
  0
TABLE
  2
BLOCK_RECORD
  5
1
330
0
100
AcDbSymbolTable
 70
     3
  0
BLOCK_RECORD
  5
1F
330
1
100
AcDbSymbolTableRecord
100
AcDbBlockTableRecord
  2
*Model_Space
340
22
  0
BLOCK_RECORD
  5
1B
330
1
100
AcDbSymbolTableRecord
100
AcDbBlockTableRecord
  2
*Paper_Space
340
1E
  0
BLOCK_RECORD
  5
23
330
1
100
AcDbSymbolTableRecord
100
AcDbBlockTableRecord
  2
*Paper_Space0
340
26
  0
BLOCK_RECORD
  5
88
330
1
100
AcDbSymbolTableRecord
100
AcDbBlockTableRecord
  2
SW_CENTERMARKSYMBOL_0
340
0
102
{BLKREFS
331
93
102
}
  0
BLOCK_RECORD
  5
B2
330
1
100
AcDbSymbolTableRecord
100
AcDbBlockTableRecord
  2
SW_CENTERMARKSYMBOL_1
340
0
102
{BLKREFS
331
BD
102
}
  0
ENDTAB
  0
ENDSEC
  0
SECTION
  2
BLOCKS
  0
BLOCK
  5
20
330
1F
100
AcDbEntity
  8
0
100
AcDbBlockBegin
  2
*Model_Space
 70
     0
 10
0.0
 20
0.0
 30
0.0
  3
*Model_Space
  1

  0
ENDBLK
  5
21
330
1F
100
AcDbEntity
  8
0
100
AcDbBlockEnd
  0
BLOCK
  5
1C
330
1B
100
AcDbEntity
 67
     1
  8
0
100
AcDbBlockBegin
  2
*Paper_Space
 70
     0
 10
0.0
 20
0.0
 30
0.0
  3
*Paper_Space
  1

  0
ENDBLK
  5
1D
330
1B
100
AcDbEntity
 67
     1
  8
0
100
AcDbBlockEnd
  0
BLOCK
  5
24
330
23
100
AcDbEntity
  8
0
100
AcDbBlockBegin
  2
*Paper_Space0
 70
     0
 10
0.0
 20
0.0
 30
0.0
  3
*Paper_Space0
  1

  0
ENDBLK
  5
25
330
23
100
AcDbEntity
  8
0
100
AcDbBlockEnd
  0
BLOCK
  5
89
330
88
100
AcDbEntity
  8
0
100
AcDbBlockBegin
  2
SW_CENTERMARKSYMBOL_0
 70
     0
 10
0.0
 20
0.0
 30
0.0
  3
SW_CENTERMARKSYMBOL_0
  1

  0
LINE
  5
8B
330
88
100
AcDbEntity
  8
FORMAT
 62
     0
100
AcDbLine
 10
0.0
 20
0.0
 30
0.0
 11
0.0
 21
2.5
 31
0.0
  0
LINE
  5
8C
330
88
100
AcDbEntity
  8
FORMAT
 62
     0
100
AcDbLine
 10
0.0
 20
0.0
 30
0.0
 11
-2.5
 21
0.0
 31
0.0
  0
LINE
  5
8D
330
88
100
AcDbEntity
  8
FORMAT
 62
     0
100
AcDbLine
 10
0.0
 20
0.0
 30
0.0
 11
0.0
 21
-2.5
 31
0.0
  0
LINE
  5
8E
330
88
100
AcDbEntity
  8
FORMAT
 62
     0
100
AcDbLine
 10
0.0
 20
0.0
 30
0.0
 11
2.5
 21
0.0
 31
0.0
  0
LINE
  5
8F
330
88
100
AcDbEntity
  8
FORMAT
 62
     0
100
AcDbLine
 10
0.0
 20
5.0
 30
0.0
 11
0.0
 21
82.5
 31
0.0
  0
LINE
  5
90
330
88
100
AcDbEntity
  8
FORMAT
 62
     0
100
AcDbLine
 10
-5.0
 20
0.0
 30
0.0
 11
-82.5
 21
0.0
 31
0.0
  0
LINE
  5
91
330
88
100
AcDbEntity
  8
FORMAT
 62
     0
100
AcDbLine
 10
0.0
 20
-5.0
 30
0.0
 11
0.0
 21
-82.5
 31
0.0
  0
LINE
  5
92
330
88
100
AcDbEntity
  8
FORMAT
 62
     0
100
AcDbLine
 10
5.0
 20
0.0
 30
0.0
 11
82.5
 21
0.0
 31
0.0
  0
ENDBLK
  5
8A
330
88
100
AcDbEntity
  8
0
100
AcDbBlockEnd
  0
BLOCK
  5
B3
330
B2
100
AcDbEntity
  8
0
100
AcDbBlockBegin
  2
SW_CENTERMARKSYMBOL_1
 70
     0
 10
0.0
 20
0.0
 30
0.0
  3
SW_CENTERMARKSYMBOL_1
  1

  0
LINE
  5
B5
330
B2
100
AcDbEntity
  8
FORMAT
 62
     0
100
AcDbLine
 10
0.0
 20
0.0
 30
0.0
 11
0.0
 21
2.5
 31
0.0
  0
LINE
  5
B6
330
B2
100
AcDbEntity
  8
FORMAT
 62
     0
100
AcDbLine
 10
0.0
 20
0.0
 30
0.0
 11
-2.5
 21
0.0
 31
0.0
  0
LINE
  5
B7
330
B2
100
AcDbEntity
  8
FORMAT
 62
     0
100
AcDbLine
 10
0.0
 20
0.0
 30
0.0
 11
0.0
 21
-2.5
 31
0.0
  0
LINE
  5
B8
330
B2
100
AcDbEntity
  8
FORMAT
 62
     0
100
AcDbLine
 10
0.0
 20
0.0
 30
0.0
 11
2.5
 21
0.0
 31
0.0
  0
LINE
  5
B9
330
B2
100
AcDbEntity
  8
FORMAT
 62
     0
100
AcDbLine
 10
0.0
 20
5.0
 30
0.0
 11
0.0
 21
40.0
 31
0.0
  0
LINE
  5
BA
330
B2
100
AcDbEntity
  8
FORMAT
 62
     0
100
AcDbLine
 10
-5.0
 20
0.0
 30
0.0
 11
-40.0
 21
0.0
 31
0.0
  0
LINE
  5
BB
330
B2
100
AcDbEntity
  8
FORMAT
 62
     0
100
AcDbLine
 10
0.0
 20
-5.0
 30
0.0
 11
0.0
 21
-40.0
 31
0.0
  0
LINE
  5
BC
330
B2
100
AcDbEntity
  8
FORMAT
 62
     0
100
AcDbLine
 10
5.0
 20
0.0
 30
0.0
 11
40.0
 21
0.0
 31
0.0
  0
ENDBLK
  5
B4
330
B2
100
AcDbEntity
  8
0
100
AcDbBlockEnd
  0
ENDSEC
  0
SECTION
  2
ENTITIES
  0
LINE
  5
83
330
1F
100
AcDbEntity
  8
0
  6
Continuous
 62
     7
370
    25
100
AcDbLine
 10
157.9517856611
 20
70.0872537287
 30
0.0
 11
269.2148128429
 21
70.0872537287
 31
0.0
  0
LINE
  5
84
330
1F
100
AcDbEntity
  8
0
  6
Continuous
 62
     7
370
    25
100
AcDbLine
 10
269.2148128429
 20
145.0872537287
 30
0.0
 11
157.8967608141
 21
145.0872537287
 31
0.0
  0
CIRCLE
  5
85
330
1F
100
AcDbEntity
  8
0
  6
Continuous
 62
     7
370
    25
100
AcDbCircle
 10
87.2148128429
 20
107.5872537287
 30
0.0
 40
65.39999999999999
  0
CIRCLE
  5
86
330
1F
100
AcDbEntity
  8
0
  6
Continuous
 62
     7
370
    25
100
AcDbCircle
 10
87.2148128429
 20
107.5872537287
 30
0.0
 40
79.99999999999999
  0
LINE
  5
87
330
1F
100
AcDbEntity
  8
0
  6
Continuous
 62
     7
370
    25
100
AcDbLine
 10
269.2148128429
 20
145.0872537287
 30
0.0
 11
269.2148128429
 21
70.0872537287
 31
0.0
  0
INSERT
  5
93
330
1F
100
AcDbEntity
  8
FORMAT
100
AcDbBlockReference
  2
SW_CENTERMARKSYMBOL_0
 10
87.2148128429
 20
107.5872537287
 30
0.0
  0
LINE
  5
94
330
1F
100
AcDbEntity
  8
0
  6
Continuous
 62
     7
370
    25
100
AcDbLine
 10
7.2148128429
 20
-58.8608481427
 30
0.0
 11
7.2148128429
 21
-475.8608481427
 31
0.0
  0
LINE
  5
95
330
1F
100
AcDbEntity
  8
0
  6
Continuous
 62
     7
370
    25
100
AcDbLine
 10
167.2148128429
 20
-229.9722723244
 30
0.0
 11
167.2148128429
 21
-58.8608481427
 31
0.0
  0
LINE
  5
96
330
1F
100
AcDbEntity
  8
0
  6
Continuous
 62
     7
370
    25
100
AcDbLine
 10
167.2148128429
 20
-475.8608481427
 30
0.0
 11
167.2148128429
 21
-304.8608481427
 31
0.0
  0
LINE
  5
97
330
1F
100
AcDbEntity
  8
0
  6
Continuous
 62
     7
370
    25
100
AcDbLine
 10
167.2148128429
 20
-304.8608481427
 30
0.0
 11
269.2148128429
 21
-304.8608481427
 31
0.0
  0
LINE
  5
98
330
1F
100
AcDbEntity
  8
0
  6
Continuous
 62
     7
370
    25
100
AcDbLine
 10
269.2148128429
 20
-229.8608481427
 30
0.0
 11
167.2148128429
 21
-229.8608481427
 31
0.0
  0
LWPOLYLINE
  5
99
330
1F
100
AcDbEntity
  8
0
  6
Continuous
 62
     7
370
    25
100
AcDbPolyline
 90
       22
 70
   128
 43
0.0
 10
167.1626856282
 20
-229.9722723244
 10
167.0974763843
 20
-230.1118221895
 10
166.6024229589
 20
-231.1856820762
 10
165.7367539166
 20
-233.1271625394
 10
164.5823360248
 20
-235.8650763106
 10
163.2090456318
 20
-239.4077907576
 10
161.6755805936
 20
-243.8947889501
 10
160.1817425238
 20
-249.1833118117
 10
158.9437855273
 20
-255.0606236587
 10
158.1162966918
 20
-261.5927971746
 10
157.8814871384
 20
-267.5307186255
 10
158.1617368689
 20
-273.6629135784
 10
158.8335741659
 20
-279.0011648668
 10
159.8531462025
 20
-284.1708889891
 10
161.1537955215
 20
-289.1145411522
 10
162.603225631
 20
-293.62227961
 10
164.1362022386
 20
-297.7442341715
 10
165.5239389171
 20
-301.103539596
 10
166.5336469347
 20
-303.3848323988
 10
167.1198636132
 20
-304.6578606049
 10
167.2148128429
 20
-304.8608481427
 10
167.2148128429
 20
-304.8608481427
  0
LINE
  5
9A
330
1F
100
AcDbEntity
  8
0
  6
Continuous
 62
     7
370
    25
100
AcDbLine
 10
167.2148128429
 20
-475.8608481427
 30
0.0
 11
7.2148128429
 21
-475.8608481427
 31
0.0
  0
LINE
  5
9B
330
1F
100
AcDbEntity
  8
0
  6
Continuous
 62
     7
370
    25
100
AcDbLine
 10
167.2148128429
 20
-58.8608481427
 30
0.0
 11
7.2148128429
 21
-58.8608481427
 31
0.0
  0
LINE
  5
9C
330
1F
100
AcDbEntity
  8
0
  6
Continuous
 62
     7
370
    25
100
AcDbLine
 10
269.2148128429
 20
-229.8608481427
 30
0.0
 11
269.2148128429
 21
-304.8608481427
 31
0.0
  0
LINE
  5
9D
330
1F
100
AcDbEntity
  8
0
  6
Continuous
 62
     7
370
    25
100
AcDbLine
 10
167.2148128429
 20
515.6503372123
 30
0.0
 11
167.2148128429
 21
686.6503372123
 31
0.0
  0
LINE
  5
9E
330
1F
100
AcDbEntity
  8
0
  6
Continuous
 62
     7
370
    25
100
AcDbLine
 10
167.2148128429
 20
269.6503372123
 30
0.0
 11
167.2148128429
 21
440.761761394
 31
0.0
  0
LINE
  5
9F
330
1F
100
AcDbEntity
  8
0
  6
Continuous
 62
     7
370
    25
100
AcDbLine
 10
7.2148128429
 20
686.6503372123
 30
0.0
 11
7.2148128429
 21
269.6503372123
 31
0.0
  0
LINE
  5
A0
330
1F
100
AcDbEntity
  8
0
  6
Continuous
 62
     7
370
    25
100
AcDbLine
 10
167.1627278023
 20
440.6503372123
 30
0.0
 11
269.2148128429
 21
440.6503372123
 31
0.0
  0
LINE
  5
A1
330
1F
100
AcDbEntity
  8
0
  6
Continuous
 62
     7
370
    25
100
AcDbLine
 10
269.2148128429
 20
515.6503372123
 30
0.0
 11
167.2148128429
 21
515.6503372123
 31
0.0
  0
SPLINE
  5
A2
330
1F
100
AcDbEntity
  8
0
  6
Continuous
 62
     7
370
    25
100
AcDbSpline
210
0.0
220
0.0
230
1.0
 70
     8
 71
     3
 72
    27
 73
    23
 74
     0
 42
0.000000001
 43
0.00000001
 40
0.0
 40
0.0
 40
0.0
 40
0.0
 40
0.0491437296234454
 40
0.0998007939403881
 40
0.1489229749385607
 40
0.1993343073646283
 40
0.2511937481963894
 40
0.304375970103279
 40
0.3594731485405094
 40
0.416345752743573
 40
0.4682187053414957
 40
0.5219558481068695
 40
0.5687135918688635
 40
0.616777889345579
 40
0.6647335842205403
 40
0.7138243061976791
 40
0.7669760446197732
 40
0.8215563577469291
 40
0.8764394594651425
 40
0.9331729107894415
 40
0.9838838370709172
 40
0.9999999999999999
 40
0.9999999999999999
 40
0.9999999999999999
 40
0.9999999999999999
 10
167.2148128428879
 20
515.6503372123206
 30
0.0
 10
167.1728106435933
 20
515.5611530598541
 30
0.0
 10
167.0875128269855
 20
515.3800384132601
 30
0.0
 10
166.4179202214625
 20
513.9315590997348
 30
0.0
 10
165.4144250286797
 20
511.6660981406528
 30
0.0
 10
164.126281116079
 20
508.5652732016217
 30
0.0
 10
162.6444972860654
 20
504.6333040005582
 30
0.0
 10
161.0914131560476
 20
499.8767803589261
 30
0.0
 10
159.6305834259948
 20
494.3206370956764
 30
0.0
 10
158.5108658798379
 20
488.2590690644752
 30
0.0
 10
157.8865153808332
 20
481.8929027621775
 30
0.0
 10
157.8351276038602
 20
475.7862183379995
 30
0.0
 10
158.2880429296998
 20
469.9229406881271
 30
0.0
 10
159.1218661781706
 20
464.5172772128137
 30
0.0
 10
160.2778104363373
 20
459.3886067862265
 30
0.0
 10
161.6713054329858
 20
454.5593967546644
 30
0.0
 10
163.2011494882703
 20
450.128615211727
 30
0.0
 10
164.7037190270942
 20
446.3064056491539
 30
0.0
 10
166.0054041991071
 20
443.2816791507232
 30
0.0
 10
166.8532561304752
 20
441.4215848103342
 30
0.0
 10
167.2393753192084
 20
440.5977904697165
 30
0.0
 10
167.1775867024333
 20
440.7299012719867
 30
0.0
 10
167.1626856282302
 20
440.7617613939706
 30
0.0
  0
LINE
  5
A3
330
1F
100
AcDbEntity
  8
0
  6
Continuous
 62
     7
370
    25
100
AcDbLine
 10
7.2148128429
 20
686.6503372123
 30
0.0
 11
167.2148128429
 21
686.6503372123
 31
0.0
  0
LINE
  5
A4
330
1F
100
AcDbEntity
  8
0
  6
Continuous
 62
     7
370
    25
100
AcDbLine
 10
7.2148128429
 20
269.6503372123
 30
0.0
 11
167.2148128429
 21
269.6503372123
 31
0.0
  0
LINE
  5
A5
330
1F
100
AcDbEntity
  8
0
  6
Continuous
 62
     7
370
    25
100
AcDbLine
 10
269.2148128429
 20
515.6503372123
 30
0.0
 11
269.2148128429
 21
440.6503372123
 31
0.0
  0
LINE
  5
A6
330
1F
100
AcDbEntity
  8
0
  6
Continuous
 62
     7
370
    25
100
AcDbLine
 10
360.7436550075
 20
27.5872537287
 30
0.0
 11
777.7436550075
 21
27.5872537287
 31
0.0
  0
LINE
  5
A7
330
1F
100
AcDbEntity
  8
0
  6
Continuous
 62
     7
370
    25
100
AcDbLine
 10
777.7436550075
 20
187.5872537287
 30
0.0
 11
360.7436550075
 21
187.5872537287
 31
0.0
  0
LINE
  5
A8
330
1F
100
AcDbEntity
  8
0
  6
Continuous
 62
     7
370
    25
100
AcDbLine
 10
777.7436550075
 20
187.5872537287
 30
0.0
 11
777.7436550075
 21
27.5872537287
 31
0.0
  0
LINE
  5
A9
330
1F
100
AcDbEntity
  8
0
  6
Continuous
 62
     7
370
    25
100
AcDbLine
 10
360.7436550075
 20
187.5872537287
 30
0.0
 11
360.7436550075
 21
27.5872537287
 31
0.0
  0
LINE
  5
AA
330
1F
100
AcDbEntity
  8
0
  6
Continuous
 62
     7
370
    25
100
AcDbLine
 10
-83.212325565
 20
187.5872537287
 30
0.0
 11
-500.212325565
 21
187.5872537287
 31
0.0
  0
LINE
  5
AB
330
1F
100
AcDbEntity
  8
0
  6
Continuous
 62
     7
370
    25
100
AcDbLine
 10
-500.212325565
 20
27.5872537287
 30
0.0
 11
-83.212325565
 21
27.5872537287
 31
0.0
  0
CIRCLE
  5
AC
330
1F
100
AcDbEntity
  8
0
  6
Continuous
 62
     7
370
    25
100
AcDbCircle
 10
-291.712325565
 20
107.5872537287
 30
0.0
 40
30.70000000000005
  0
CIRCLE
  5
AD
330
1F
100
AcDbEntity
  8
0
  6
Continuous
 62
     7
370
    25
100
AcDbCircle
 10
-291.712325565
 20
107.5872537287
 30
0.0
 40
37.50000000000006
  0
LINE
  5
AE
330
1F
100
AcDbEntity
  8
0
  6
Continuous
 62
     7
370
    25
100
AcDbLine
 10
-500.212325565
 20
107.5872537287
 30
0.0
 11
-500.212325565
 21
187.5872537287
 31
0.0
  0
LINE
  5
AF
330
1F
100
AcDbEntity
  8
0
  6
Continuous
 62
     7
370
    25
100
AcDbLine
 10
-500.212325565
 20
27.5872537287
 30
0.0
 11
-500.212325565
 21
107.5872537287
 31
0.0
  0
LINE
  5
B0
330
1F
100
AcDbEntity
  8
0
  6
Continuous
 62
     7
370
    25
100
AcDbLine
 10
-83.212325565
 20
107.5872537287
 30
0.0
 11
-83.212325565
 21
187.5872537287
 31
0.0
  0
LINE
  5
B1
330
1F
100
AcDbEntity
  8
0
  6
Continuous
 62
     7
370
    25
100
AcDbLine
 10
-83.212325565
 20
27.5872537287
 30
0.0
 11
-83.212325565
 21
107.5872537287
 31
0.0
  0
INSERT
  5
BD
330
1F
100
AcDbEntity
  8
FORMAT
100
AcDbBlockReference
  2
SW_CENTERMARKSYMBOL_1
 10
-291.712325565
 20
107.5872537287
 30
0.0
  0
LINE
  5
BE
330
1F
100
AcDbEntity
  8
0
  6
Continuous
 62
     7
370
    25
100
AcDbLine
 10
717.419393354
 20
-249.2291163378
 30
0.0
 11
647.5004298625
 21
-208.8657578724
 31
0.0
  0
LINE
  5
BF
330
1F
100
AcDbEntity
  8
0
  6
Continuous
 62
     7
370
    25
100
AcDbLine
 10
572.4943343149
 20
-165.5656605812
 30
0.0
 11
422.5558655992
 21
-79.0080250228
 31
0.0
  0
LINE
  5
C0
330
1F
100
AcDbEntity
  8
0
  6
Continuous
 62
     7
370
    25
100
AcDbLine
 10
342.5623669884
 20
-217.5758430037
 30
0.0
 11
637.4258947431
 21
-387.7969343187
 31
0.0
  0
LINE
  5
C1
330
1F
100
AcDbEntity
  8
0
  6
Continuous
 62
     7
370
    25
100
AcDbLine
 10
602.1089611252
 20
-235.069695008
 30
0.0
 11
677.4327905841
 21
-191.5861738341
 31
0.0
  0
LINE
  5
C2
330
1F
100
AcDbEntity
  8
0
  6
Continuous
 62
     7
370
    25
100
AcDbLine
 10
639.9358381102
 20
-126.6325091556
 30
0.0
 11
564.6109308707
 21
-170.1166525189
 31
0.0
  0
SPLINE
  5
C3
330
1F
100
AcDbEntity
  8
0
  6
Continuous
 62
     7
370
    25
100
AcDbSpline
210
0.0
220
0.0
230
1.0
 70
     8
 71
     3
 72
    22
 73
    18
 74
     0
 42
0.000000001
 43
0.00000001
 40
0.0
 40
0.0
 40
0.0
 40
0.0
 40
0.065508527293783
 40
0.1330343277541166
 40
0.1985141307586027
 40
0.2657123709298887
 40
0.3348409377114175
 40
0.4057327699355109
 40
0.4791772367092293
 40
0.554988343706031
 40
0.624134921654176
 40
0.6957664626566311
 40
0.7580944739186618
 40
0.8221641195730646
 40
0.8860889981014127
 40
0.9515268662720184
 40
1.0
 40
1.0
 40
1.0
 40
1.0
 10
560.0429183716201
 20
-185.4385031011558
 30
0.0
 10
560.076281050202
 20
-187.0920137695776
 30
0.0
 10
560.1440337795117
 20
-190.4499534042341
 30
0.0
 10
560.6947898595471
 20
-196.0174749901681
 30
0.0
 10
561.5871343841947
 20
-201.8140836161326
 30
0.0
 10
562.868893531292
 20
-207.7214479733467
 30
0.0
 10
564.6014358286545
 20
-213.6707631917073
 30
0.0
 10
566.8666111627068
 20
-219.510751257417
 30
0.0
 10
569.7624291213
 20
-225.0421656059605
 30
0.0
 10
573.2568677196562
 20
-229.816830113264
 30
0.0
 10
577.3168659378928
 20
-233.6394866171541
 30
0.0
 10
581.5988920214695
 20
-236.2317951231671
 30
0.0
 10
586.0641675100104
 20
-237.7399926836846
 30
0.0
 10
590.4796689392
 20
-238.2694469392529
 30
0.0
 10
594.9102669428559
 20
-237.8655238366257
 30
0.0
 10
598.8648888503262
 20
-236.8092963770595
 30
0.0
 10
601.1033001405742
 20
-235.5217220395869
 30
0.0
 10
602.0558227942422
 20
-234.9738139182925
 30
0.0
  0
SPLINE
  5
C4
330
1F
100
AcDbEntity
  8
0
  6
Continuous
 62
     7
370
    25
100
AcDbSpline
210
0.0
220
0.0
230
1.0
 70
     8
 71
     3
 72
    12
 73
     8
 74
     0
 42
0.000000001
 43
0.00000001
 40
0.0
 40
0.0
 40
0.0
 40
0.0
 40
0.205619316812614
 40
0.4298155516672078
 40
0.6457752815605656
 40
0.869237237050429
 40
1.0
 40
1.0
 40
1.0
 40
1.0
 10
564.6261027258714
 20
-170.1404887152094
 30
0.0
 10
564.0195473996126
 20
-170.5830398932014
 30
0.0
 10
562.7516367956193
 20
-171.50812505377
 30
0.0
 10
561.4492126051604
 20
-174.1119372576184
 30
0.0
 10
560.5263486333172
 20
-177.7055193324536
 30
0.0
 10
560.0996966414688
 20
-181.5878770953168
 30
0.0
 10
560.0582269800396
 20
-184.4002938381725
 30
0.0
 10
560.0429183716201
 20
-185.4385031011557
 30
0.0
  0
LWPOLYLINE
  5
C5
330
1F
100
AcDbEntity
  8
0
  6
Continuous
 62
     7
370
    25
100
AcDbPolyline
 90
       95
 70
   128
 43
0.0
 10
439.1276587887
 20
-115.6356095403
 10
439.0013343672
 20
-111.3454221657
 10
438.6229252982
 20
-107.2202468819
 10
437.9941216486
 20
-103.2785077231
 10
437.1177318079
 20
-99.5378094533
 10
435.9976699461
 20
-96.014858939
 10
434.6389385312
 20
-92.7253905325
 10
433.0476059877
 20
-89.6840957981
 10
431.2307795929
 20
-86.9045578965
 10
429.1965737346
 20
-84.3991909186
 10
426.9540736699
 20
-82.1791844416
 10
424.5132949486
 20
-80.2544535533
 10
421.8851386809
 20
-78.6335945691
 10
419.0813428506
 20
-77.3238466386
 10
416.1144298906
 20
-76.3310594141
 10
412.9976507545
 20
-75.6596669244
 10
409.7449257344
 20
-75.3126677712
 10
406.3707822898
 20
-75.2916117371
 10
402.8902901646
 20
-75.5965928633
 10
399.3189940813
 20
-76.2262490301
 10
395.6728443154
 20
-77.1777680404
 10
391.9681254567
 20
-78.446900179
 10
388.221383679
 20
-80.027977194
 10
384.4493528406
 20
-81.9139376114
 10
380.668879747
 20
-84.0963582742
 10
376.8968489086
 20
-86.565491962
 10
373.1501071309
 20
-89.3103109243
 10
369.4453882722
 20
-92.3185561333
 10
365.7992385063
 20
-95.5767920357
 10
362.227942423
 20
-99.070466559
 10
358.7474502978
 20
-102.7839761046
 10
355.3733068532
 20
-106.7007352375
 10
352.1205818331
 20
-110.8032507605
 10
349.0038026969
 20
-115.0731998434
 10
346.036889737
 20
-119.4915118571
 10
343.2330939067
 20
-124.0384535476
 10
340.604937639
 20
-128.6937171694
 10
338.1641589177
 20
-133.4365111852
 10
335.921658853
 20
-138.2456531256
 10
333.8874529947
 20
-143.0996641951
 10
332.0706265999
 20
-147.9768652022
 10
330.4792940564
 20
-152.855473383
 10
329.1205626415
 20
-157.7136996892
 10
328.0005007797
 20
-162.5298461027
 10
327.124110939
 20
-167.2824025445
 10
326.4953072894
 20
-171.9501429438
 10
326.1168982204
 20
-176.512220039
 10
325.9905737989
 20
-180.9482584861
 10
326.1168982204
 20
-185.2384458608
 10
326.4953072894
 20
-189.3636211446
 10
327.124110939
 20
-193.3053603034
 10
328.0005007797
 20
-197.0460585732
 10
329.1205626415
 20
-200.5690090874
 10
330.4792940564
 20
-203.858477494
 10
332.0706265999
 20
-206.8997722283
 10
333.8874529947
 20
-209.6793101299
 10
335.921658853
 20
-212.1846771078
 10
338.1641589177
 20
-214.4046835848
 10
340.604937639
 20
-216.3294144732
 10
343.2330939067
 20
-217.9502734574
 10
346.036889737
 20
-219.2600213878
 10
349.0038026969
 20
-220.2528086123
 10
352.1205818331
 20
-220.9242011021
 10
355.3733068532
 20
-221.2712002552
 10
358.7474502978
 20
-221.2922562894
 10
362.227942423
 20
-220.9872751632
 10
365.7992385063
 20
-220.3576189963
 10
369.4453882722
 20
-219.4060999861
 10
373.1501071309
 20
-218.1369678474
 10
376.8968489086
 20
-216.5558908325
 10
380.668879747
 20
-214.6699304151
 10
384.4493528406
 20
-212.4875097523
 10
388.221383679
 20
-210.0183760645
 10
391.9681254567
 20
-207.2735571021
 10
395.6728443154
 20
-204.2653118931
 10
399.3189940813
 20
-201.0070759907
 10
402.8902901646
 20
-197.5134014674
 10
406.3707822898
 20
-193.7998919218
 10
409.7449257344
 20
-189.883132789
 10
412.9976507545
 20
-185.780617266
 10
416.1144298906
 20
-181.510668183
 10
419.0813428506
 20
-177.0923561693
 10
421.8851386809
 20
-172.5454144789
 10
424.5132949486
 20
-167.890150857
 10
426.9540736699
 20
-163.1473568412
 10
429.1965737346
 20
-158.3382149009
 10
431.2307795929
 20
-153.4842038313
 10
433.0476059877
 20
-148.6070028243
 10
434.6389385312
 20
-143.7283946434
 10
435.9976699461
 20
-138.8701683373
 10
437.1177318079
 20
-134.0540219238
 10
437.9941216486
 20
-129.301465482
 10
438.6229252982
 20
-124.6337250826
 10
439.0013343672
 20
-120.0716479875
 10
439.1276587887
 20
-115.6356095403
  0
LWPOLYLINE
  5
C6
330
1F
100
AcDbEntity
  8
0
  6
Continuous
 62
     7
370
    25
100
AcDbPolyline
 90
       13
 70
   128
 43
0.0
 10
733.9911865435
 20
-285.8567008553
 10
733.864862122
 20
-281.5665134807
 10
733.486453053
 20
-277.4413381969
 10
732.8576494033
 20
-273.4995990381
 10
731.9812595627
 20
-269.7589007683
 10
730.8611977009
 20
-266.2359502541
 10
729.502466286
 20
-262.9464818475
 10
727.9111337424
 20
-259.9051871132
 10
726.0943073477
 20
-257.1256492115
 10
724.0601014894
 20
-254.6202822337
 10
721.8176014247
 20
-252.4002757566
 10
719.3768227034
 20
-250.4755448683
 10
717.419393354
 20
-249.2291163378
  0
LWPOLYLINE
  5
C7
330
1F
100
AcDbEntity
  8
0
  6
Continuous
 62
     7
370
    25
100
AcDbPolyline
 90
       37
 70
   128
 43
0.0
 10
637.4258947431
 20
-387.7969343187
 10
638.0966216615
 20
-388.1713647724
 10
640.9004174918
 20
-389.4811127029
 10
643.8673304517
 20
-390.4738999274
 10
646.9841095879
 20
-391.1452924171
 10
650.236834608
 20
-391.4922915703
 10
653.6109780526
 20
-391.5133476044
 10
657.0914701778
 20
-391.2083664782
 10
660.6627662611
 20
-390.5787103113
 10
664.308916027
 20
-389.6271913011
 10
668.0136348857
 20
-388.3580591624
 10
671.7603766634
 20
-386.7769821475
 10
675.5324075018
 20
-384.8910217301
 10
679.3128805954
 20
-382.7086010673
 10
683.0849114338
 20
-380.2394673795
 10
686.8316532115
 20
-377.4946484172
 10
690.5363720702
 20
-374.4864032081
 10
694.1825218361
 20
-371.2281673057
 10
697.7538179194
 20
-367.7344927825
 10
701.2343100446
 20
-364.0209832369
 10
704.6084534892
 20
-360.104224104
 10
707.8611785093
 20
-356.001708581
 10
710.9779576454
 20
-351.7317594981
 10
713.9448706054
 20
-347.3134474844
 10
716.7486664357
 20
-342.7665057939
 10
719.3768227034
 20
-338.1112421721
 10
721.8176014247
 20
-333.3684481563
 10
724.0601014894
 20
-328.5593062159
 10
726.0943073477
 20
-323.7052951463
 10
727.9111337424
 20
-318.8280941393
 10
729.502466286
 20
-313.9494859585
 10
730.8611977009
 20
-309.0912596523
 10
731.9812595627
 20
-304.2751132388
 10
732.8576494033
 20
-299.522556797
 10
733.486453053
 20
-294.8548163977
 10
733.864862122
 20
-290.2927393025
 10
733.9911865435
 20
-285.8567008553
  0
LWPOLYLINE
  5
C8
330
1F
100
AcDbEntity
  8
0
  6
Continuous
 62
     7
370
    25
100
AcDbPolyline
 90
       86
 70
   128
 43
0.0
 10
428.8038997834
 20
-121.5953887566
 10
428.6776132979
 20
-117.7244367734
 10
428.2994435743
 20
-114.0204338603
 10
427.6714560446
 20
-110.5036099965
 10
426.7970805588
 20
-107.1931728547
 10
425.6810926527
 20
-104.1072028943
 10
424.3295874651
 20
-101.2625546134
 10
422.7499464489
 20
-98.6747644943
 10
420.9507970554
 20
-96.3579661493
 10
418.9419656147
 20
-94.3248131275
 10
416.7344236675
 20
-92.5864098057
 10
414.3402280426
 20
-91.1522507401
 10
411.772455006
 20
-90.0301688101
 10
409.0451288437
 20
-89.2262924381
 10
406.1731452655
 20
-88.7450121181
 10
403.1721900497
 20
-88.5889564363
 10
400.0586533731
 20
-88.7589777147
 10
396.8495402933
 20
-89.2541473561
 10
393.5623778731
 20
-90.0717609156
 10
390.2151194538
 20
-91.2073528715
 10
386.8260466001
 20
-92.6547210142
 10
383.4136692528
 20
-94.405960321
 10
379.9966246335
 20
-96.4515061299
 10
376.593575455
 20
-98.7801863791
 10
373.223107992
 20
-101.3792826247
 10
369.9036305688
 20
-104.2345995041
 10
366.6532730201
 20
-107.3305422668
 10
363.4897876716
 20
-110.650201947
 10
360.4304523834
 20
-114.1754477147
 10
357.4919761839
 20
-117.8870258999
 10
354.6904080111
 20
-121.7646651496
 10
352.0410490589
 20
-125.787187143
 10
349.558369207
 20
-129.9326222597
 10
347.2559279921
 20
-134.1783295708
 10
345.1463005495
 20
-138.5011204952
 10
343.2410089328
 20
-142.8773854478
 10
341.5504591841
 20
-147.283222787
 10
340.0838845
 20
-151.6945693572
 10
338.8492948026
 20
-156.0873319131
 10
337.853432993
 20
-160.4375187089
 10
337.1017381228
 20
-164.7213705328
 10
336.5983156889
 20
-168.9154904717
 10
336.34591521
 20
-172.9969716968
 10
336.34591521
 20
-176.9435225732
 10
336.5983156889
 20
-180.7335884084
 10
337.1017381228
 20
-184.3464691771
 10
337.853432993
 20
-187.7624325775
 10
338.8492948026
 20
-190.962821802
 10
340.0838845
 20
-193.9301574343
 10
341.5504591841
 20
-196.6482329165
 10
343.2410089328
 20
-199.1022030626
 10
345.1463005495
 20
-201.2786651387
 10
347.2559279921
 20
-203.1657320636
 10
349.558369207
 20
-204.7530973323
 10
352.0410490589
 20
-206.0320913061
 10
354.6904080111
 20
-206.9957285634
 10
357.4919761839
 20
-207.6387460517
 10
360.4304523834
 20
-207.9576318324
 10
363.4897876716
 20
-207.950644262
 10
366.6532730201
 20
-207.6178215041
 10
369.9036305688
 20
-206.9609813213
 10
373.223107992
 20
-205.9837111469
 10
376.593575455
 20
-204.6913484916
 10
379.9966246335
 20
-203.0909517922
 10
383.4136692528
 20
-201.1912618604
 10
386.8260466001
 20
-199.0026541439
 10
390.2151194538
 20
-196.537082059
 10
393.5623778731
 20
-193.8080117056
 10
396.8495402933
 20
-190.8303483195
 10
400.0586533731
 20
-187.6203548656
 10
403.1721900497
 20
-184.195563215
 10
406.1731452655
 20
-180.574678392
 10
409.0451288437
 20
-176.777476414
 10
411.772455006
 20
-172.8246962813
 10
414.3402280426
 20
-168.7379267084
 10
416.7344236676
 20
-164.5394882135
 10
418.9419656147
 20
-160.2523112117
 10
420.9507970554
 20
-155.8998107772
 10
422.7499464489
 20
-151.505758758
 10
424.3295874651
 20
-147.0941539426
 10
425.6810926527
 20
-142.6890909865
 10
426.7970805588
 20
-138.3146288161
 10
427.6714560446
 20
-133.9946592268
 10
428.2994435743
 20
-129.7527763946
 10
428.6776132979
 20
-125.6121480124
 10
428.8038997834
 20
-121.5953887566
  0
LWPOLYLINE
  5
C9
330
1F
100
AcDbEntity
  8
0
  6
Continuous
 62
     7
370
    25
100
AcDbPolyline
 90
       59
 70
   128
 43
0.0
 10
680.3924925296
 20
-171.6412060114
 10
680.265238259
 20
-168.8574374383
 10
679.8849673871
 20
-165.9593813532
 10
679.2561382423
 20
-162.9810148137
 10
678.3861232714
 20
-159.9572564445
 10
677.2851226043
 20
-156.9235570477
 10
675.9660444673
 20
-153.9154839751
 10
674.4443538454
 20
-150.9683041331
 10
672.73789117
 20
-148.1165705108
 10
670.8666631557
 20
-145.3937170775
 10
668.85260824
 20
-142.8316668002
 10
666.7193393754
 20
-140.4604573758
 10
664.4918671888
 20
-138.3078890669
 10
662.196306755
 20
-136.3991987687
 10
659.8595714213
 20
-134.75676413
 10
657.509057273
 20
-133.3998411951
 10
655.1723219393
 20
-132.3443386447
 10
652.8767615055
 20
-131.6026312814
 10
650.6492893189
 20
-131.1834149456
 10
648.5160204543
 20
-131.0916045657
 10
646.5019655386
 20
-131.3282765345
 10
644.6307375242
 20
-131.8906560894
 10
642.9242748488
 20
-132.7721498444
 10
641.402584227
 20
-133.9624230912
 10
640.08350609
 20
-135.4475209643
 10
638.9825054229
 20
-137.2100320488
 10
638.112490452
 20
-139.2292925139
 10
637.4836613072
 20
-141.4816283768
 10
637.1033904353
 20
-143.9406330588
 10
636.9761361647
 20
-146.5774769784
 10
637.1033904353
 20
-149.3612455514
 10
637.4836613072
 20
-152.2593016366
 10
638.112490452
 20
-155.2376681761
 10
638.9825054229
 20
-158.2614265453
 10
640.08350609
 20
-161.2951259421
 10
641.402584227
 20
-164.3031990146
 10
642.9242748488
 20
-167.2503788566
 10
644.6307375242
 20
-170.1021124789
 10
646.5019655386
 20
-172.8249659123
 10
648.5160204543
 20
-175.3870161896
 10
650.6492893189
 20
-177.758225614
 10
652.8767615055
 20
-179.9107939229
 10
655.1723219393
 20
-181.819484221
 10
657.509057273
 20
-183.4619188598
 10
659.8595714213
 20
-184.8188417947
 10
662.196306755
 20
-185.874344345
 10
664.4918671888
 20
-186.6160517084
 10
666.7193393754
 20
-187.0352680442
 10
668.85260824
 20
-187.127078424
 10
670.8666631557
 20
-186.8904064553
 10
672.73789117
 20
-186.3280269004
 10
674.4443538454
 20
-185.4465331453
 10
675.9660444673
 20
-184.2562598985
 10
677.2851226043
 20
-182.7711620255
 10
678.3861232714
 20
-181.0086509409
 10
679.2561382423
 20
-178.9893904758
 10
679.8849673871
 20
-176.7370546129
 10
680.265238259
 20
-174.2780499309
 10
680.3924925296
 20
-171.6412060114
  0
LWPOLYLINE
  5
CA
330
1F
100
AcDbEntity
  8
0
  6
Continuous
 62
     7
370
    25
100
AcDbPolyline
 90
       66
 70
   128
 43
0.0
 10
685.2008186416
 20
-174.4169935915
 10
685.0770299136
 20
-171.3902485546
 10
684.7068195114
 20
-168.2488399974
 10
684.0936439899
 20
-165.0220984052
 10
683.2432284037
 20
-161.7401509948
 10
682.163512854
 20
-158.4336404249
 10
680.8645783539
 20
-155.1334386938
 10
679.358552705
 20
-151.870358896
 10
677.6594972629
 20
-148.6748675282
 10
675.7832756504
 20
-145.5768000325
 10
673.7474056434
 20
-142.6050822303
 10
671.5708956114
 20
-139.7874602499
 10
669.2740670423
 20
-137.1502414688
 10
666.8783648056
 20
-134.718048888
 10
664.4061569274
 20
-132.5135912345
 10
661.8805257468
 20
-130.5574509353
 10
659.3250524015
 20
-128.8678919453
 10
656.7635966576
 20
-127.4606892217
 10
654.2200741373
 20
-126.3489814371
 10
651.7182330249
 20
-125.5431483076
 10
649.281432337
 20
-125.0507136799
 10
646.932423825
 20
-124.8762752836
 10
644.6931395484
 20
-125.0214618028
 10
642.5844871011
 20
-125.4849176703
 10
640.626154403
 20
-126.2623157234
 10
638.8364258788
 20
-127.346397606
 10
637.2320117415
 20
-128.7270415376
 10
635.8278919736
 20
-130.3913568179
 10
634.6371764631
 20
-132.3238041834
 10
633.6709825998
 20
-134.5063408939
 10
632.9383314757
 20
-136.9185891921
 10
632.4460636567
 20
-139.5380265655
 10
632.1987753149
 20
-142.3401960332
 10
632.1987753149
 20
-145.2989344939
 10
632.4460636567
 20
-148.3866170038
 10
632.9383314757
 20
-151.5744147031
 10
633.6709825998
 20
-154.8325639838
 10
634.6371764631
 20
-158.1306443837
 10
635.8278919736
 20
-161.4378626149
 10
637.2320117415
 20
-164.7233400717
 10
638.8364258788
 20
-167.9564011365
 10
640.626154403
 20
-171.1068595891
 10
642.5844871011
 20
-174.1453004478
 10
644.6931395484
 20
-177.043354609
 10
646.932423825
 20
-179.7739637217
 10
649.281432337
 20
-182.3116328246
 10
651.7182330249
 20
-184.6326683848
 10
654.2200741373
 20
-186.7153995187
 10
656.7635966576
 20
-188.5403803269
 10
659.3250524015
 20
-190.0905714553
 10
661.8805257468
 20
-191.3514991869
 10
664.4061569274
 20
-192.3113905794
 10
666.8783648056
 20
-192.9612833854
 10
669.2740670423
 20
-193.2951097309
 10
671.5708956114
 20
-193.3097527692
 10
673.7474056434
 20
-193.0050757822
 10
675.7832756504
 20
-192.3839234569
 10
677.6594972629
 20
-191.4520953251
 10
679.358552705
 20
-190.2182916152
 10
680.8645783539
 20
-188.6940320198
 10
682.163512854
 20
-186.8935481401
 10
683.2432284037
 20
-184.833650609
 10
684.0936439899
 20
-182.5335721348
 10
684.7068195114
 20
-180.0147879304
 10
685.0770299136
 20
-177.3008152053
 10
685.2008186416
 20
-174.4169935915
  0
ENDSEC
  0
SECTION
  2
OBJECTS
  0
DICTIONARY
  5
C
330
0
100
AcDbDictionary
281
     1
  3
ACAD_GROUP
350
D
  3
ACAD_LAYOUT
350
1A
  3
ACAD_MLINESTYLE
350
17
  3
ACAD_PLOTSETTINGS
350
19
  3
ACAD_PLOTSTYLENAME
350
E
  3
ACAD_SCALELIST
350
47
  0
DICTIONARY
  5
D
102
{ACAD_REACTORS
330
C
102
}
330
C
100
AcDbDictionary
281
     1
  0
DICTIONARY
  5
1A
102
{ACAD_REACTORS
330
C
102
}
330
C
100
AcDbDictionary
281
     1
  3
Layout1
350
1E
  3
Layout2
350
26
  3
Model
350
22
  0
DICTIONARY
  5
17
102
{ACAD_REACTORS
330
C
102
}
330
C
100
AcDbDictionary
281
     1
  3
Standard
350
18
  0
DICTIONARY
  5
19
102
{ACAD_REACTORS
330
C
102
}
330
C
100
AcDbDictionary
281
     1
  0
ACDBDICTIONARYWDFLT
  5
E
102
{ACAD_REACTORS
330
C
102
}
330
C
100
AcDbDictionary
281
     1
  3
Normal
350
F
100
AcDbDictionaryWithDefault
340
F
  0
DICTIONARY
  5
47
102
{ACAD_REACTORS
330
C
102
}
330
C
100
AcDbDictionary
281
     1
  3
A0
350
48
  3
A1
350
49
  3
A2
350
4A
  3
A3
350
4B
  3
A4
350
4C
  3
A5
350
4D
  3
A6
350
4E
  3
A7
350
4F
  3
A8
350
50
  3
A9
350
51
  3
B0
350
52
  3
B1
350
53
  3
B2
350
54
  3
B3
350
55
  3
B4
350
56
  3
B5
350
57
  3
B6
350
58
  3
B7
350
59
  3
B8
350
5A
  3
B9
350
5B
  3
C0
350
5C
  3
C1
350
5D
  3
C2
350
5E
  3
C3
350
5F
  3
C4
350
60
  3
C5
350
61
  3
C6
350
62
  3
C7
350
63
  3
C8
350
64
  3
C9
350
65
  3
D0
350
66
  3
D1
350
67
  3
D2
350
68
  0
LAYOUT
  5
1E
102
{ACAD_REACTORS
330
1A
102
}
330
1A
100
AcDbPlotSettings
  1

  2
none_device
  4

  6

 40
0.0
 41
0.0
 42
0.0
 43
0.0
 44
0.0
 45
0.0
 46
0.0
 47
0.0
 48
0.0
 49
0.0
140
0.0
141
0.0
142
1.0
143
1.0
 70
   688
 72
     1
 73
     0
 74
     5
  7

 75
    16
147
1.0
148
0.0
149
0.0
100
AcDbLayout
  1
Layout1
 70
     1
 71
     1
 10
0.0
 20
0.0
 11
420.0
 21
297.0
 12
0.0
 22
0.0
 32
0.0
 14
1.0000000000E+20
 24
1.0000000000E+20
 34
1.0000000000E+20
 15
-1.0000000000E+20
 25
-1.0000000000E+20
 35
-1.0000000000E+20
146
0.0
 13
0.0
 23
0.0
 33
0.0
 16
1.0
 26
0.0
 36
0.0
 17
0.0
 27
1.0
 37
0.0
 76
     0
330
1B
  0
LAYOUT
  5
26
102
{ACAD_REACTORS
330
1A
102
}
330
1A
100
AcDbPlotSettings
  1

  2
none_device
  4

  6

 40
0.0
 41
0.0
 42
0.0
 43
0.0
 44
0.0
 45
0.0
 46
0.0
 47
0.0
 48
0.0
 49
0.0
140
0.0
141
0.0
142
1.0
143
1.0
 70
   688
 72
     1
 73
     0
 74
     5
  7

 75
    16
147
1.0
148
0.0
149
0.0
100
AcDbLayout
  1
Layout2
 70
     1
 71
     2
 10
0.0
 20
0.0
 11
0.0
 21
0.0
 12
0.0
 22
0.0
 32
0.0
 14
0.0
 24
0.0
 34
0.0
 15
0.0
 25
0.0
 35
0.0
146
0.0
 13
0.0
 23
0.0
 33
0.0
 16
1.0
 26
0.0
 36
0.0
 17
0.0
 27
1.0
 37
0.0
 76
     0
330
23
  0
LAYOUT
  5
22
102
{ACAD_REACTORS
330
1A
102
}
330
1A
100
AcDbPlotSettings
  1

  2
none_device
  4
Letter_(8.50_x_11.00_Inches)
  6

 40
6.35
 41
6.35
 42
6.35000508
 43
6.35000508
 44
215.9
 45
279.4
 46
0.0
 47
0.0
 48
0.0
 49
0.0
140
0.0
141
0.0
142
1.0
143
1.0
 70
  1712
 72
     1
 73
     0
 74
     0
  7

 75
     0
147
1.0
148
0.0
149
0.0
100
AcDbLayout
  1
Model
 70
     1
 71
     0
 10
0.0
 20
0.0
 11
279.4
 21
215.9
 12
0.0
 22
0.0
 32
0.0
 14
0.0
 24
0.0
 34
0.0
 15
279.4
 25
215.9
 35
0.0
146
0.0
 13
0.0
 23
0.0
 33
0.0
 16
1.0
 26
0.0
 36
0.0
 17
0.0
 27
1.0
 37
0.0
 76
     0
330
1F
331
29
  0
MLINESTYLE
  5
18
102
{ACAD_REACTORS
330
17
102
}
330
17
100
AcDbMlineStyle
  2
Standard
 70
     0
  3

 62
   256
 51
90.0
 52
90.0
 71
     2
 49
0.5
 62
   256
  6
BYLAYER
 49
-0.5
 62
   256
  6
BYLAYER
  0
ACDBPLACEHOLDER
  5
F
102
{ACAD_REACTORS
330
E
102
}
330
E
  0
SCALE
  5
48
102
{ACAD_REACTORS
330
47
102
}
330
47
100
AcDbScale
 70
     0
300
1:1
140
1.0
141
1.0
290
     1
  0
SCALE
  5
49
102
{ACAD_REACTORS
330
47
102
}
330
47
100
AcDbScale
 70
     0
300
1:2
140
1.0
141
2.0
290
     0
  0
SCALE
  5
4A
102
{ACAD_REACTORS
330
47
102
}
330
47
100
AcDbScale
 70
     0
300
1:4
140
1.0
141
4.0
290
     0
  0
SCALE
  5
4B
102
{ACAD_REACTORS
330
47
102
}
330
47
100
AcDbScale
 70
     0
300
1:5
140
1.0
141
5.0
290
     0
  0
SCALE
  5
4C
102
{ACAD_REACTORS
330
47
102
}
330
47
100
AcDbScale
 70
     0
300
1:8
140
1.0
141
8.0
290
     0
  0
SCALE
  5
4D
102
{ACAD_REACTORS
330
47
102
}
330
47
100
AcDbScale
 70
     0
300
1:10
140
1.0
141
10.0
290
     0
  0
SCALE
  5
4E
102
{ACAD_REACTORS
330
47
102
}
330
47
100
AcDbScale
 70
     0
300
1:16
140
1.0
141
16.0
290
     0
  0
SCALE
  5
4F
102
{ACAD_REACTORS
330
47
102
}
330
47
100
AcDbScale
 70
     0
300
1:20
140
1.0
141
20.0
290
     0
  0
SCALE
  5
50
102
{ACAD_REACTORS
330
47
102
}
330
47
100
AcDbScale
 70
     0
300
1:30
140
1.0
141
30.0
290
     0
  0
SCALE
  5
51
102
{ACAD_REACTORS
330
47
102
}
330
47
100
AcDbScale
 70
     0
300
1:40
140
1.0
141
40.0
290
     0
  0
SCALE
  5
52
102
{ACAD_REACTORS
330
47
102
}
330
47
100
AcDbScale
 70
     0
300
1:50
140
1.0
141
50.0
290
     0
  0
SCALE
  5
53
102
{ACAD_REACTORS
330
47
102
}
330
47
100
AcDbScale
 70
     0
300
1:100
140
1.0
141
100.0
290
     0
  0
SCALE
  5
54
102
{ACAD_REACTORS
330
47
102
}
330
47
100
AcDbScale
 70
     0
300
2:1
140
2.0
141
1.0
290
     0
  0
SCALE
  5
55
102
{ACAD_REACTORS
330
47
102
}
330
47
100
AcDbScale
 70
     0
300
4:1
140
4.0
141
1.0
290
     0
  0
SCALE
  5
56
102
{ACAD_REACTORS
330
47
102
}
330
47
100
AcDbScale
 70
     0
300
8:1
140
8.0
141
1.0
290
     0
  0
SCALE
  5
57
102
{ACAD_REACTORS
330
47
102
}
330
47
100
AcDbScale
 70
     0
300
10:1
140
10.0
141
1.0
290
     0
  0
SCALE
  5
58
102
{ACAD_REACTORS
330
47
102
}
330
47
100
AcDbScale
 70
     0
300
100:1
140
100.0
141
1.0
290
     0
  0
SCALE
  5
59
102
{ACAD_REACTORS
330
47
102
}
330
47
100
AcDbScale
 70
     0
300
1/128" = 1'-0"
140
0.0078125
141
12.0
290
     0
  0
SCALE
  5
5A
102
{ACAD_REACTORS
330
47
102
}
330
47
100
AcDbScale
 70
     0
300
1/64" = 1'-0"
140
0.015625
141
12.0
290
     0
  0
SCALE
  5
5B
102
{ACAD_REACTORS
330
47
102
}
330
47
100
AcDbScale
 70
     0
300
1/32" = 1'-0"
140
0.03125
141
12.0
290
     0
  0
SCALE
  5
5C
102
{ACAD_REACTORS
330
47
102
}
330
47
100
AcDbScale
 70
     0
300
1/16" = 1'-0"
140
0.0625
141
12.0
290
     0
  0
SCALE
  5
5D
102
{ACAD_REACTORS
330
47
102
}
330
47
100
AcDbScale
 70
     0
300
3/32" = 1'-0"
140
0.09375
141
12.0
290
     0
  0
SCALE
  5
5E
102
{ACAD_REACTORS
330
47
102
}
330
47
100
AcDbScale
 70
     0
300
1/8" = 1'-0"
140
0.125
141
12.0
290
     0
  0
SCALE
  5
5F
102
{ACAD_REACTORS
330
47
102
}
330
47
100
AcDbScale
 70
     0
300
3/16" = 1'-0"
140
0.1875
141
12.0
290
     0
  0
SCALE
  5
60
102
{ACAD_REACTORS
330
47
102
}
330
47
100
AcDbScale
 70
     0
300
1/4" = 1'-0"
140
0.25
141
12.0
290
     0
  0
SCALE
  5
61
102
{ACAD_REACTORS
330
47
102
}
330
47
100
AcDbScale
 70
     0
300
3/8" = 1'-0"
140
0.375
141
12.0
290
     0
  0
SCALE
  5
62
102
{ACAD_REACTORS
330
47
102
}
330
47
100
AcDbScale
 70
     0
300
1/2" = 1'-0"
140
0.5
141
12.0
290
     0
  0
SCALE
  5
63
102
{ACAD_REACTORS
330
47
102
}
330
47
100
AcDbScale
 70
     0
300
3/4" = 1'-0"
140
0.75
141
12.0
290
     0
  0
SCALE
  5
64
102
{ACAD_REACTORS
330
47
102
}
330
47
100
AcDbScale
 70
     0
300
1" = 1'-0"
140
1.0
141
12.0
290
     0
  0
SCALE
  5
65
102
{ACAD_REACTORS
330
47
102
}
330
47
100
AcDbScale
 70
     0
300
1-1/2" = 1'-0"
140
1.5
141
12.0
290
     0
  0
SCALE
  5
66
102
{ACAD_REACTORS
330
47
102
}
330
47
100
AcDbScale
 70
     0
300
3" = 1'-0"
140
3.0
141
12.0
290
     0
  0
SCALE
  5
67
102
{ACAD_REACTORS
330
47
102
}
330
47
100
AcDbScale
 70
     0
300
6" = 1'-0"
140
6.0
141
12.0
290
     0
  0
SCALE
  5
68
102
{ACAD_REACTORS
330
47
102
}
330
47
100
AcDbScale
 70
     0
300
1'-0" = 1'-0"
140
12.0
141
12.0
290
     0
  0
ENDSEC
  0
EOF
